AMZINAI

Cm
Intro: Cm Ab G Bb Cm

             Cm
Ji atejo ryte
                            Ab
Giliam Dziaugsme
                       Bb
Liudesys praeis
    Gm                 Cm
Rytoj baltam sode
        Bb        Ab
Baltais ziedais

Tyliai upe plauks
Ir vėl is dangaus
Jura nusileis
Tyloj zaizdas nuplaus
Saltais lasais

Mano kelias tiesus
Ir as vel teisus
Suklupau atleis
Nezinau kas bus
Rytoj kita diena

Pried.:
Fm                 Ab              Cm
Siandien naktis greitai krenta
Ab            Fm       Cm
Ir kur nunes nezinai
Fm          Ab              Cm
O kai pasieksim ta kranta
Ab              Fm         Cm
Liksim gyvent amzinai

Solo: tema akordai

O dabar tiktai
Balti sapnai
Kuriuose girdziu
Balsus senu draugu
Ar jie kada sugris

Per ilga naktis
Degina akis
Tolimi namai
Saule tuoj sugris
Mane pavys

Intro: Cm Ab G Bb Cm 4 kartus

© 2005, Nojus


MANE PRISIMINK

pragr.: h A/D e

Bm                   A               G
Pabudau ryte einu tolyn
D                                      Fm#
Matau i lauka bega vaikai
Bm             A             G
O as vis tolyn vis gilyn
D                                Em
Ten kur mane palikai

Gelėe zydi pauksciai dangui
Kokia grazi si pasaulio diena
O ar zinai kas bus paskui
Kur nunes laiko banga

Kazkada sakei bet pamirsau
Kiek gyvenima dar teks gyvent
Apie tai tyliu bet zinau
Savo taure reiks isgert

Kai sirdy ledai nutirps
Ir ateis pavasaris grazus
Tyliai padainuok ir isgirsk
Kaip laikas nesa metus

Pried.:
Bm                    A                 G
Kiek daug pasauliu dangui
D                                     Em
Ir tu nori juos visus pazint
Bm                    A                 G
Bet sustok nurimk o paskui
D                                              Em
Nors trumpam mane prisimink
Bm                     A               G
Bet sustok nurimk o paskui
D                                             Fm#
Nors trumpam mane prisimink

© Nojus, 2004


Tyliai

             Dm               C       Bb   
Baltos sienos juodoj nakty
          Dm                     Gm
Plytu linijos lygios ir graudzios
              Dm         C       Bb
Kiek tu dar iskenteti turi
               Dm                        Gm
Kiek dar zodziu igels tau skaudziai

Tik seseliai pilku debesu
Iskeliauja is pilko pasaulio
Kiek dar reikia prarasti keliu
Kad surastum save is naujo

Ji paliecia salta ranka
Zvilgsniu kaitina krauja
Kas ar laiko mane cia
Kas beviltiskai juokauja

Mano zodzius vejas nupus
Mano kuna uzklos bangos
Kiek dar kartu sitaip bus
Kiek dar krisiu veidu i dangu

Pried.:
Dm Bb Gm  C
Tyliai taip tyliai krenta
Tavo zodziai i mano kranta
Tyliai taip tyliai leidzias
Tavo delnai ant mano veido
Tyliai taip tyliai kalbam
Toj tyloj save surandam
Tyliai tai tyliai skrendam
Ten kur jura ten kur bangos

© NOJUS,2004


SUGRISIU

Intro: G h7 e

G                                         D/F#
Laiko debesys plauks upe
      C                           Em
Seseliais ateis naktis
      C              G
O laikas kelyje
         D/F#                 Em
Man nieko nepasakys
     D7/F#         C
Ir nieko nezades

Per daug laiko ten palikau
Neturejau kuo but kur eit
Ir kasdien vis maziau matau
Kaip gyvenima si iseit
Nepaklys nenueit

Pried.:
       G             D/F#                  Em
Sugrisiu kai rukas pievom plauks
       D7/F#                        C
Kai niekas daugiau nelauks
     G       D/F#                 Em
Atnesiu glebi lauko geliu
         D7/F#                         C
Nes nieko daugiau neturiu

Solo: G  D/F#  Em  C

Per ilgai uztrukau kely
Per ilgai tarp sienu blaskiausi
Ar surasi mane savy
Ar isgirsi tave sauksiu
Kai nieko daugiau nelauksiu

Vel isvesk mane is tamsos
Dar iplk laseli nakties
Joje tiek daug tiesos
Bet taip mazai vilties
Kad ranka kazkas isties

Sugrisiukai rukas pievom plauks
Kai niekas daugiau nelauks
Atnesiu glebi lauko geliu
Nes nieko daugiau neturiu

© Nojus, 2004


AS KRENTU

E
Tu
                                                Cm#
Tu nezinai kuriuo keliu as einu
                                                  E
Ka as jauciu kai tu toli tu salia
                                                            Cm#
Cia as esu teisus ir ne gyvent liudnai
                                                  E
Ka tu jauti ka tu kalbi pamirsai
                                             Cm#
Niekada nemaciau taip arti
                                           E
Taip toli galiu matyt akyse
                                                           Cm#
Danguje kazkur aukstai ka tu manai
                          
Dabar verk as krendu

A
Ei,
Ar sulaikysi tu mane
             Cm#
Aš krentu
A
Ei
Ar rasi vietos danguje
             Cm#
Aš krentu

Ei ši vieta man nemiela
Turiu išeit
Į ten kur niekad nebuvau
Nemačiau
Nemačiau niekada taip arti
Taip toli galiu matyt akyse
Danguje kažkur aukštai
Ką tu manai
Dabar verk aš skrendu

Ei,
Ar sulaikysi tu mane
Aš krentu
Ei
Ar rasi vietos danguje
Aš krentu

Solo: A  Cm#  A  Cm#

© Nojus, 2003


UPĖ

Em     C                        G     D
Nežinau kur ieškot tavęs
Em      D                 C
Tavo spindinčių akių
Em     C                   G         D
Tiktai vėjas po gatves
Em         C  Am
Lydi kur einu

Tiktai mėnuo danguje
Ar tai viskas ko man reik
Pasiklydau tamsoje
Pabūk dar neišeik

Pried.:
G            D        Em    Am
Nors ši upė gili
G            D             Em D    Am
Bet aš plaukti per ją kviečiu
Em      D                 Em   Am
Ir kaip mėnuo nakty
G          D             Em     Am
Aš tau kelią šviečiu
Em      D                 Em   Am
Ir kaip mėnuo nakty
G          Am           G     C
Aš tau kelią šviečiu
G        Am                   G     D
Iš bedugnės žvaigždžių

Ta šviesa kitam krante
Ar toli mane nuves
Nešiu ugnį delnuose
Laikysiu kol užges

©
Nojus, 2005


JŪRA DANGAUS (Instrumentinis)

1 Tema

Cm#              A/-5

e|---0-------0-------0-------0------------------------------------------------|

B|---5-------5-------4-------4------------------------------------------------|

G|---6-------6-------6-------6------------------------------------------------|

D|---6-------6-------6-------6------------------------------------------------|

A|---4-------4-------0-------0------------------------------------------------|

E|----------------------------------------------------------------------------|

2 Tema

E  A   B   Gm   E   A   B

Solo

e|----------------------------------------------------------------------------|

B|---9------------------7-9-7---------4-5-4-------------------------7-9-7----------|

G|-----6---6-8-9-8-6-------8---4-6-------4-6----------6-8-9-8-6---------8--------|

D|-------6---------------------------------------6-6---6--------------------------|

A|----------------------------------------------------------------------------|

E|----------------------------------------------------------------------------|

Solo

e|------------------------91112--141612----------------------------------------------|

B|---9-7-912--12---9--------------------14--1214--------------------------------------|

G|------------------------------------------------------13--141113--11------------------------|

D|--------------------------------------------------------------------------14--131411---6-8-9----------|

A|-----------------------------------------------------------------------------------------6--------------|

E|----------------------------------------------------------------------------|

© Nojus, 2005


TEN

        
Dm        Bb         Dm
Mes renkam nešam savo metus
         F                Am7            Dm
Ir vėl bėgam nežinom kas bus
          F                Gm        Am7     Dm
Mes skubam gyventi gyvenima gerti
Bb                C                    Dm
Ir atrodo pasaulis pries mus

Dažnai sapnuoju plaukiu per jūrą
Jūrą dangaus
Ir aplinkui nei vieno žmogaus
Matau krantą jėgos senka
O priešais veida lietaus

Gm7          Am7    Dm
Ten mano viltys skęsta
Gm7         Am7          Dm
Išplaukia ir sugrįžta vėl
         F             Gm
Ten skrenda paukščiai
  Am7      Dm
Į žemės krašta
Bb             C              Dm
Tiktai neklausiu kodel

Moduliacija: D

                     Em          C      G              D
Kiekvienas žingsnis žodis veda pirmyn
               G           Bm7        Em
Ir mūsų rankos kyla aukštyn
         G             Am7   Bm7     Em
Mes bėgam į gatvę nuo vienatvės
C                  D                 Em
Bet dažnai krentam žemyn

Kas vakar baigės šiandien iš naujo vėl prasidės
Ir visą laiką kažkas mus stebės
Vėl bėgti verta eilinė kartą
Tik neprarasti vilties

Am7           Bm7      Em
Ten mano viltys skęsta
Am7         Bm7          Em
Išplaukia ir sugrįžta vėl
          G            Am7
Ten skrenda paukščiai
   Bm7      Em
Į žemės krašta
C               D              Em
Tiktai neklausiu kodėl

© Nojus,2003


VEIDU Į DANGŲ

Bm    D    Fm
#

Bm
Ten
D      Fm#  Bm
Ar buvai ten
D        Fm#  Bm
Kur žali laukai
D      Fm#    Bm
Vasaros širdy
Man
Atiduok man
Ką ten radai
Ąžuolų šaly

Didelis triukšmas mane prikels
Iš gilaus miego vidury nakties
Krisiu i tamsą liūdesy rudens
Nusileisiu paukščiu ant tavo peties

Ir visas pasaulis mūsų bus
Kai mes išskleisim savo sparnus
Veidu į dangų į krantą lietaus
Kur tūkstančiai rankų
Mus pagaus

Dar nežinau dar
Kur pabaiga
Negaliu greičiau

Taip nestovėk taip
Palikta viena
O prieik arčiau

© Nojus, 2005


SURADAU

Intro: D/ Em/   4 kartus

D             Em
Užgeso šviesos
D                        Em
Languose tamsu
D                   Em             D
Mes stovim kiemo vidury
   Em
Abu

Nesakyk nieko
Vardų neminėk
Tik sielos skausmą man pamiršt
Padėk

Pried.:
Bm              Em                    D
Baigės naktis nutolo vaizdai
              G                D
Kurie lydėjo taip ilgai
                 Am Bm          Em
Aš pas tave kelią suradau
 Bm         Em                  D
Rytas išauš ir diena ateis
            G                     D
Mano nuodėmes atleis
                    Am              Bm      Em
Kaip man žinot ar dar tiki manim


Beldžiu į duris
Ir įsiklausau
Atgal kelio nebėra žinau

Ar aš būsiu vienas
Ar keltėsiu aš
Ar mano balsas dar tave suras

Bridge: /A hhh/ 4 taktai
Solo: Em / D / Em / Bm / Em / D / Em / Bm / Em / D / G / Bm

© Nojus, 2005


GĖLĖS

Intro Tab

e|----------------------------------------------------------------------------|

B|---8---8-----7------10---7----8----8-----7-----5----3----------------------------|

G|-----0---0-0---0-0----0----0---0---0-0---0-0---0---0--------------------------|

D|----------------------------------------------------------------------------|

A|----------------------------------------------------------------------------|

E|----------------------------------------------------------------------------|

 

e|----------------------------------------------------------------------------|

B|---8----8------7----10---7----8----8------7-----8--10----------------------------|

G|-----0---0-0---0-0----0----0---0----0-0---0-0---0------------------------------|

D|----------------------------------------------------------------------------|

A|----------------------------------------------------------------------------|

E|----------------------------------------------------------------------------|

 

e|----------------------------------------------------------------------------|

B|----------------------------------------------------------------------------|

G|---9----9--------7-------7-9---5---5-------7-------7-9--------------------------------|

D|-----10--1010--1010----------7----7-7----7-7------------------------------------|

A|----------------------------------------------------------------------------|

E|----------------------------------------------------------------------------|


 

e|----------------------------------------------------------------------------|

B|---8---8-----7------10---7----8----8-----7-----5----3----------------------------|

G|-----0---0-0---0-0----0----0---0---0-0---0-0---0---0--------------------------|

D|----------------------------------------------------------------------------|

A|----------------------------------------------------------------------------|

E|----------------------------------------------------------------------------|

G         D/F#                   Em
Kodėl tuščios miesto gatvės
G          D /F#               Em
Bet juk dar ne taip vėlu
C        G/B                  Am
Tu pavargęs nuo vienatvės
G         D/F
#                Em
Ir nuo tūkstančio minčiu

Kur eina tavo dienos
Taip lėtai plačiam kely
Viduje skamba dainos
Jų pamiršti negali

Pried.:
D/F#
                G
Ten banguos juros
D/F#
             Em
Ten baltuos smėlis
Am
 D/F# Am       Cmaj
O jame - pėdo-o-o-os
DF#
 Bm  Em
O jose - gėlės

Priešaky sustingęs laikas
Ir veidai iš atminties
Ir kaip vienas mažas vaikas
Tu nakty juos šaukies

Kažkas beldžia tau i langą
Kažko klausia nežinai
Tu lėtai akis užmerki
Ir sugrižta vėl namai

Pried.:
Ten banguoja juros
Ten baltuoja smėlis
O jame - pėdos
O jose - gėlės

© Nojus, 2005